  0
SECTION
  2
HEADER
  9
$ACADVER
  1
AC1015
  9
$ACADMAINTVER
 70
     6
  9
$DWGCODEPAGE
  3
ANSI_1254
  9
$INSBASE
 10
0.0
 20
0.0
 30
0.0
  9
$EXTMIN
 10
0.0
 20
0.0
 30
0.0
  9
$EXTMAX
 10
279.4
 20
215.9
 30
0.0
  9
$LIMMIN
 10
0.0
 20
0.0
  9
$LIMMAX
 10
279.4
 20
215.9
  9
$ORTHOMODE
 70
     0
  9
$REGENMODE
 70
     1
  9
$FILLMODE
 70
     1
  9
$QTEXTMODE
 70
     0
  9
$MIRRTEXT
 70
     1
  9
$LTSCALE
 40
1.0
  9
$ATTMODE
 70
     1
  9
$TEXTSIZE
 40
3.5
  9
$TRACEWID
 40
1.0
  9
$TEXTSTYLE
  7
Standard
  9
$CLAYER
  8
0
  9
$CELTYPE
  6
ByLayer
  9
$CECOLOR
 62
   256
  9
$CELTSCALE
 40
1.0
  9
$DISPSILH
 70
     0
  9
$DIMSCALE
 40
1.0
  9
$DIMASZ
 40
3.5
  9
$DIMEXO
 40
1.0
  9
$DIMDLI
 40
3.75
  9
$DIMRND
 40
0.0
  9
$DIMDLE
 40
0.0
  9
$DIMEXE
 40
1.0
  9
$DIMTP
 40
0.0
  9
$DIMTM
 40
0.0
  9
$DIMTXT
 40
3.5
  9
$DIMCEN
 40
2.5
  9
$DIMTSZ
 40
0.0
  9
$DIMTOL
 70
     0
  9
$DIMLIM
 70
     0
  9
$DIMTIH
 70
     1
  9
$DIMTOH
 70
     1
  9
$DIMSE1
 70
     0
  9
$DIMSE2
 70
     0
  9
$DIMTAD
 70
     1
  9
$DIMZIN
 70
     0
  9
$DIMBLK
  1

  9
$DIMASO
 70
     1
  9
$DIMSHO
 70
     1
  9
$DIMPOST
  1

  9
$DIMAPOST
  1

  9
$DIMALT
 70
     0
  9
$DIMALTD
 70
     3
  9
$DIMALTF
 40
0.0393700787
  9
$DIMLFAC
 40
1.0
  9
$DIMTOFL
 70
     1
  9
$DIMTVP
 40
0.0
  9
$DIMTIX
 70
     0
  9
$DIMSOXD
 70
     0
  9
$DIMSAH
 70
     0
  9
$DIMBLK1
  1

  9
$DIMBLK2
  1

  9
$DIMSTYLE
  2
ISO-25
  9
$DIMCLRD
 70
     0
  9
$DIMCLRE
 70
     0
  9
$DIMCLRT
 70
     0
  9
$DIMTFAC
 40
1.0
  9
$DIMGAP
 40
1.524
  9
$DIMJUST
 70
     0
  9
$DIMSD1
 70
     0
  9
$DIMSD2
 70
     0
  9
$DIMTOLJ
 70
     0
  9
$DIMTZIN
 70
     0
  9
$DIMALTZ
 70
     0
  9
$DIMALTTZ
 70
     0
  9
$DIMUPT
 70
     0
  9
$DIMDEC
 70
     2
  9
$DIMTDEC
 70
     2
  9
$DIMALTU
 70
     2
  9
$DIMALTTD
 70
     3
  9
$DIMTXSTY
  7
Standard
  9
$DIMAUNIT
 70
     0
  9
$DIMADEC
 70
     2
  9
$DIMALTRND
 40
0.0
  9
$DIMAZIN
 70
     0
  9
$DIMDSEP
 70
    44
  9
$DIMATFIT
 70
     3
  9
$DIMFRAC
 70
     0
  9
$DIMLDRBLK
  1

  9
$DIMLUNIT
 70
     2
  9
$DIMLWD
 70
    -2
  9
$DIMLWE
 70
    -2
  9
$DIMTMOVE
 70
     0
  9
$LUNITS
 70
     2
  9
$LUPREC
 70
     2
  9
$SKETCHINC
 40
1.0
  9
$FILLETRAD
 40
10.0
  9
$AUNITS
 70
     0
  9
$AUPREC
 70
     2
  9
$MENU
  1
.
  9
$ELEVATION
 40
0.0
  9
$PELEVATION
 40
0.0
  9
$THICKNESS
 40
0.0
  9
$LIMCHECK
 70
     0
  9
$CHAMFERA
 40
0.0
  9
$CHAMFERB
 40
0.0
  9
$CHAMFERC
 40
0.0
  9
$CHAMFERD
 40
0.0
  9
$SKPOLY
 70
     0
  9
$TDCREATE
 40
2458985.68301022
  9
$TDUCREATE
 40
2458985.55801022
  9
$TDUPDATE
 40
2458985.683010498
  9
$TDUUPDATE
 40
2458985.558010498
  9
$TDINDWG
 40
0.0000000116
  9
$TDUSRTIMER
 40
0.0000000116
  9
$USRTIMER
 70
     1
  9
$ANGBASE
 50
0.0
  9
$ANGDIR
 70
     0
  9
$PDMODE
 70
     0
  9
$PDSIZE
 40
-1.0
  9
$PLINEWID
 40
0.0
  9
$SPLFRAME
 70
     0
  9
$SPLINETYPE
 70
     6
  9
$SPLINESEGS
 70
     8
  9
$HANDSEED
  5
CB
  9
$SURFTAB1
 70
     6
  9
$SURFTAB2
 70
     6
  9
$SURFTYPE
 70
     6
  9
$SURFU
 70
     6
  9
$SURFV
 70
     6
  9
$UCSBASE
  2

  9
$UCSNAME
  2

  9
$UCSORG
 10
0.0
 20
0.0
 30
0.0
  9
$UCSXDIR
 10
1.0
 20
0.0
 30
0.0
  9
$UCSYDIR
 10
0.0
 20
1.0
 30
0.0
  9
$UCSORTHOREF
  2

  9
$UCSORTHOVIEW
 70
     0
  9
$UCSORGTOP
 10
0.0
 20
0.0
 30
0.0
  9
$UCSORGBOTTOM
 10
0.0
 20
0.0
 30
0.0
  9
$UCSORGLEFT
 10
0.0
 20
0.0
 30
0.0
  9
$UCSORGRIGHT
 10
0.0
 20
0.0
 30
0.0
  9
$UCSORGFRONT
 10
0.0
 20
0.0
 30
0.0
  9
$UCSORGBACK
 10
0.0
 20
0.0
 30
0.0
  9
$PUCSBASE
  2

  9
$PUCSNAME
  2

  9
$PUCSORG
 10
0.0
 20
0.0
 30
0.0
  9
$PUCSXDIR
 10
1.0
 20
0.0
 30
0.0
  9
$PUCSYDIR
 10
0.0
 20
1.0
 30
0.0
  9
$PUCSORTHOREF
  2

  9
$PUCSORTHOVIEW
 70
     0
  9
$PUCSORGTOP
 10
0.0
 20
0.0
 30
0.0
  9
$PUCSORGBOTTOM
 10
0.0
 20
0.0
 30
0.0
  9
$PUCSORGLEFT
 10
0.0
 20
0.0
 30
0.0
  9
$PUCSORGRIGHT
 10
0.0
 20
0.0
 30
0.0
  9
$PUCSORGFRONT
 10
0.0
 20
0.0
 30
0.0
  9
$PUCSORGBACK
 10
0.0
 20
0.0
 30
0.0
  9
$USERI1
 70
     0
  9
$USERI2
 70
     0
  9
$USERI3
 70
     0
  9
$USERI4
 70
     0
  9
$USERI5
 70
     0
  9
$USERR1
 40
0.0
  9
$USERR2
 40
0.0
  9
$USERR3
 40
0.0
  9
$USERR4
 40
0.0
  9
$USERR5
 40
0.0
  9
$WORLDVIEW
 70
     1
  9
$SHADEDGE
 70
     3
  9
$SHADEDIF
 70
    70
  9
$TILEMODE
 70
     1
  9
$MAXACTVP
 70
    64
  9
$PINSBASE
 10
0.0
 20
0.0
 30
0.0
  9
$PLIMCHECK
 70
     0
  9
$PEXTMIN
 10
1.0000000000E+20
 20
1.0000000000E+20
 30
1.0000000000E+20
  9
$PEXTMAX
 10
-1.0000000000E+20
 20
-1.0000000000E+20
 30
-1.0000000000E+20
  9
$PLIMMIN
 10
0.0
 20
0.0
  9
$PLIMMAX
 10
420.0
 20
297.0
  9
$UNITMODE
 70
     0
  9
$VISRETAIN
 70
     1
  9
$PLINEGEN
 70
     0
  9
$PSLTSCALE
 70
     1
  9
$TREEDEPTH
 70
  3020
  9
$CMLSTYLE
  2
Standard
  9
$CMLJUST
 70
     0
  9
$CMLSCALE
 40
20.0
  9
$PROXYGRAPHICS
 70
     1
  9
$MEASUREMENT
 70
     1
  9
$CELWEIGHT
370
    -1
  9
$ENDCAPS
280
     0
  9
$JOINSTYLE
280
     0
  9
$LWDISPLAY
290
     1
  9
$INSUNITS
 70
     4
  9
$HYPERLINKBASE
  1

  9
$STYLESHEET
  1

  9
$XEDIT
290
     1
  9
$CEPSNTYPE
380
     0
  9
$PSTYLEMODE
290
     1
  9
$FINGERPRINTGUID
  2
{9a765d8e-b495-496d-8b1b-d72c7f7f57f7}
  9
$VERSIONGUID
  2
{FAEB1C32-E019-11D5-929B-00C0DF256EC4}
  9
$EXTNAMES
290
     1
  9
$PSVPSCALE
 40
0.0
  9
$OLESTARTUP
290
     0
  0
ENDSEC
  0
SECTION
  2
CLASSES
  0
CLASS
  1
ACDBDICTIONARYWDFLT
  2
AcDbDictionaryWithDefault
  3
ObjectDBX Classes
 90
        0
280
     0
281
     0
  0
CLASS
  1
VISUALSTYLE
  2
AcDbVisualStyle
  3
ObjectDBX Classes
 90
     4095
280
     0
281
     0
  0
CLASS
  1
MATERIAL
  2
AcDbMaterial
  3
ObjectDBX Classes
 90
     1153
280
     0
281
     0
  0
CLASS
  1
SCALE
  2
AcDbScale
  3
ObjectDBX Classes
 90
     1153
280
     0
281
     0
  0
CLASS
  1
TABLESTYLE
  2
AcDbTableStyle
  3
ObjectDBX Classes
 90
     4095
280
     0
281
     0
  0
CLASS
  1
MLEADERSTYLE
  2
AcDbMLeaderStyle
  3
ACDB_MLEADERSTYLE_CLASS
 90
     4095
280
     0
281
     0
  0
CLASS
  1
SUN
  2
AcDbSun
  3
SCENEOE
 90
     1153
280
     0
281
     0
  0
CLASS
  1
ACDBPLACEHOLDER
  2
AcDbPlaceHolder
  3
ObjectDBX Classes
 90
        0
280
     0
281
     0
  0
CLASS
  1
LAYOUT
  2
AcDbLayout
  3
ObjectDBX Classes
 90
        0
280
     0
281
     0
  0
ENDSEC
  0
SECTION
  2
TABLES
  0
TABLE
  2
VPORT
  5
8
330
0
100
AcDbSymbolTable
 70
     1
  0
VPORT
  5
29
330
8
100
AcDbSymbolTableRecord
100
AcDbViewportTableRecord
  2
*Active
 70
     0
 10
0.0
 20
0.0
 11
1.0
 21
1.0
 12
139.7
 22
107.95
 13
0.0
 23
0.0
 14
10.0
 24
10.0
 15
10.0
 25
10.0
 16
0.0
 26
0.0
 36
1.0
 17
0.0
 27
0.0
 37
0.0
 40
215.9
 41
1.2941176471
 42
50.0
 43
0.0
 44
0.0
 50
0.0
 51
0.0
 71
     0
 72
  2000
 73
     1
 74
     3
 75
     0
 76
     0
 77
     0
 78
     0
281
     0
 65
     1
110
0.0
120
0.0
130
0.0
111
1.0
121
0.0
131
0.0
112
0.0
122
1.0
132
0.0
 79
     0
146
0.0
  0
ENDTAB
  0
TABLE
  2
LTYPE
  5
5
330
0
100
AcDbSymbolTable
 70
     6
  0
LTYPE
  5
14
330
5
100
AcDbSymbolTableRecord
100
AcDbLinetypeTableRecord
  2
ByBlock
 70
     0
  3

 72
    65
 73
     0
 40
0.0
  0
LTYPE
  5
15
330
5
100
AcDbSymbolTableRecord
100
AcDbLinetypeTableRecord
  2
ByLayer
 70
     0
  3

 72
    65
 73
     0
 40
0.0
  0
LTYPE
  5
16
330
5
100
AcDbSymbolTableRecord
100
AcDbLinetypeTableRecord
  2
Continuous
 70
     0
  3
Solid line
 72
    65
 73
     0
 40
0.0
  0
LTYPE
  5
6E
330
5
100
AcDbSymbolTableRecord
100
AcDbLinetypeTableRecord
  2
HIDDEN
 70
     0
  3
Hidden __ __ __ __ __ __ __ __ __ __ __ __ __ __
 72
    65
 73
     2
 40
1.905
 49
1.27
 74
     0
 49
-0.635
 74
     0
  0
LTYPE
  5
6F
330
5
100
AcDbSymbolTableRecord
100
AcDbLinetypeTableRecord
  2
PHANTOM
 70
     0
  3
Phantom ______  __  __  ______  __  __  ______
 72
    65
 73
     6
 40
12.7
 49
6.35
 74
     0
 49
-1.27
 74
     0
 49
1.27
 74
     0
 49
-1.27
 74
     0
 49
1.27
 74
     0
 49
-1.27
 74
     0
  0
LTYPE
  5
70
330
5
100
AcDbSymbolTableRecord
100
AcDbLinetypeTableRecord
  2
CENTER
 70
     0
  3
Center ____ _ ____ _ ____ _ ____ _ ____ _ ____
 72
    65
 73
     4
 40
10.16
 49
6.35
 74
     0
 49
-1.27
 74
     0
 49
1.27
 74
     0
 49
-1.27
 74
     0
  0
LTYPE
  5
71
330
5
100
AcDbSymbolTableRecord
100
AcDbLinetypeTableRecord
  2
CENTERX2
 70
     0
  3
Center (2x) ________  __  ________  __  _____
 72
    65
 73
     4
 40
20.32
 49
12.7
 74
     0
 49
-2.54
 74
     0
 49
2.54
 74
     0
 49
-2.54
 74
     0
  0
LTYPE
  5
72
330
5
100
AcDbSymbolTableRecord
100
AcDbLinetypeTableRecord
  2
DOT2
 70
     0
  3
Dot (.5x) ........................................
 72
    65
 73
     2
 40
0.635
 49
0.0
 74
     0
 49
-0.635
 74
     0
  0
ENDTAB
  0
TABLE
  2
LAYER
  5
2
330
0
100
AcDbSymbolTable
 70
    17
  0
LAYER
  5
10
330
2
100
AcDbSymbolTableRecord
100
AcDbLayerTableRecord
  2
0
 70
     0
 62
     7
  6
Continuous
370
    -3
390
F
  0
LAYER
  5
73
330
2
100
AcDbSymbolTableRecord
100
AcDbLayerTableRecord
  2
FORMAT
 70
     0
 62
     7
  6
Continuous
370
    -3
390
F
  0
LAYER
  5
74
330
2
100
AcDbSymbolTableRecord
100
AcDbLayerTableRecord
  2
YARDIMCI_GEOMETRI
 70
     0
 62
    -6
  6
Continuous
290
     0
370
    -3
390
F
  0
LAYER
  5
75
330
2
100
AcDbSymbolTableRecord
100
AcDbLayerTableRecord
  2
SAYFA_CERCEVESI
 70
     0
 62
     7
  6
Continuous
370
    25
390
F
  0
LAYER
  5
76
330
2
100
AcDbSymbolTableRecord
100
AcDbLayerTableRecord
  2
ANTET
 70
     0
 62
     7
  6
Continuous
370
    -3
390
F
  0
LAYER
  5
77
330
2
100
AcDbSymbolTableRecord
100
AcDbLayerTableRecord
  2
OLCU
 70
     0
 62
   150
  6
Continuous
370
    -3
390
F
  0
LAYER
  5
78
330
2
100
AcDbSymbolTableRecord
100
AcDbLayerTableRecord
  2
METIN
 70
     0
 62
    96
  6
Continuous
370
    -3
390
F
  0
LAYER
  5
79
330
2
100
AcDbSymbolTableRecord
100
AcDbLayerTableRecord
  2
BALON
 70
     0
 62
     5
  6
Continuous
370
    -3
390
F
  0
LAYER
  5
7A
330
2
100
AcDbSymbolTableRecord
100
AcDbLayerTableRecord
  2
VURGU
 70
     0
 62
     7
  6
Continuous
370
    -3
390
F
  0
LAYER
  5
7B
330
2
100
AcDbSymbolTableRecord
100
AcDbLayerTableRecord
  2
SILIK
 70
     0
 62
     7
  6
Continuous
370
    -3
390
F
  0
LAYER
  5
7C
330
2
100
AcDbSymbolTableRecord
100
AcDbLayerTableRecord
  2
MODEL
 70
     0
 62
     7
  6
Continuous
370
    -3
390
F
  0
LAYER
  5
7D
330
2
100
AcDbSymbolTableRecord
100
AcDbLayerTableRecord
  2
DETAYLANDıRMA
 70
     0
 62
   190
  6
Continuous
370
    -3
390
F
  0
LAYER
  5
7E
330
2
100
AcDbSymbolTableRecord
100
AcDbLayerTableRecord
  2
TOLERANS
 70
     0
 62
   230
  6
Continuous
370
    -3
390
F
  0
LAYER
  5
7F
330
2
100
AcDbSymbolTableRecord
100
AcDbLayerTableRecord
  2
MERKEZ_CIZGILERI
 70
     0
 62
    30
  6
Continuous
370
    -3
390
F
  0
LAYER
  5
80
330
2
100
AcDbSymbolTableRecord
100
AcDbLayerTableRecord
  2
KESIT-DETAY_CIZGILERI
 70
     0
 62
     7
  6
Continuous
370
    -3
390
F
  0
LAYER
  5
81
330
2
100
AcDbSymbolTableRecord
100
AcDbLayerTableRecord
  2
\U+041E\U+0421\U+0415\U+0412\U+042B\U+0415
 70
     0
 62
     7
  6
Continuous
370
    -3
390
F
  0
LAYER
  5
82
330
2
100
AcDbSymbolTableRecord
100
AcDbLayerTableRecord
  2
\U+0412\U+041E\U+0414\U+042F\U+041D\U+042B\U+0415_\U+0417\U+041D\U+0410\U+041A\U+0418
 70
     0
 62
    11
  6
Continuous
370
    -3
390
F
  0
ENDTAB
  0
TABLE
  2
STYLE
  5
3
330
0
100
AcDbSymbolTable
 70
     1
  0
STYLE
  5
11
330
3
100
AcDbSymbolTableRecord
100
AcDbTextStyleTableRecord
  2
Standard
 70
     0
 40
0.0
 41
1.0
 50
0.0
 71
     0
 42
3.5
  3
txt
  4

  0
ENDTAB
  0
TABLE
  2
VIEW
  5
6
330
0
100
AcDbSymbolTable
 70
     0
  0
ENDTAB
  0
TABLE
  2
UCS
  5
7
330
0
100
AcDbSymbolTable
 70
     0
  0
ENDTAB
  0
TABLE
  2
APPID
  5
9
330
0
100
AcDbSymbolTable
 70
     1
  0
APPID
  5
12
330
9
100
AcDbSymbolTableRecord
100
AcDbRegAppTableRecord
  2
ACAD
 70
     0
  0
ENDTAB
  0
TABLE
  2
DIMSTYLE
  5
A
330
0
100
AcDbSymbolTable
 70
     1
100
AcDbDimStyleTable
  0
DIMSTYLE
105
27
330
A
100
AcDbSymbolTableRecord
100
AcDbDimStyleTableRecord
  2
ISO-25
 70
     0
 41
2.5
 42
0.625
 43
3.75
 44
1.25
 73
     0
 74
     0
 77
     1
 78
     8
140
2.5
141
2.5
143
0.0393700787
147
0.625
171
     3
172
     1
178
     0
271
     2
272
     2
274
     3
278
    44
283
     0
284
     8
340
11
  0
ENDTAB
  0
TABLE
  2
BLOCK_RECORD
  5
1
330
0
100
AcDbSymbolTable
 70
     3
  0
BLOCK_RECORD
  5
1F
330
1
100
AcDbSymbolTableRecord
100
AcDbBlockTableRecord
  2
*Model_Space
340
22
  0
BLOCK_RECORD
  5
1B
330
1
100
AcDbSymbolTableRecord
100
AcDbBlockTableRecord
  2
*Paper_Space
340
1E
  0
BLOCK_RECORD
  5
23
330
1
100
AcDbSymbolTableRecord
100
AcDbBlockTableRecord
  2
*Paper_Space0
340
26
  0
BLOCK_RECORD
  5
88
330
1
100
AcDbSymbolTableRecord
100
AcDbBlockTableRecord
  2
SW_CENTERMARKSYMBOL_0
340
0
102
{BLKREFS
331
93
102
}
  0
BLOCK_RECORD
  5
B2
330
1
100
AcDbSymbolTableRecord
100
AcDbBlockTableRecord
  2
SW_CENTERMARKSYMBOL_1
340
0
102
{BLKREFS
331
BD
102
}
  0
ENDTAB
  0
ENDSEC
  0
SECTION
  2
BLOCKS
  0
BLOCK
  5
20
330
1F
100
AcDbEntity
  8
0
100
AcDbBlockBegin
  2
*Model_Space
 70
     0
 10
0.0
 20
0.0
 30
0.0
  3
*Model_Space
  1

  0
ENDBLK
  5
21
330
1F
100
AcDbEntity
  8
0
100
AcDbBlockEnd
  0
BLOCK
  5
1C
330
1B
100
AcDbEntity
 67
     1
  8
0
100
AcDbBlockBegin
  2
*Paper_Space
 70
     0
 10
0.0
 20
0.0
 30
0.0
  3
*Paper_Space
  1

  0
ENDBLK
  5
1D
330
1B
100
AcDbEntity
 67
     1
  8
0
100
AcDbBlockEnd
  0
BLOCK
  5
24
330
23
100
AcDbEntity
  8
0
100
AcDbBlockBegin
  2
*Paper_Space0
 70
     0
 10
0.0
 20
0.0
 30
0.0
  3
*Paper_Space0
  1

  0
ENDBLK
  5
25
330
23
100
AcDbEntity
  8
0
100
AcDbBlockEnd
  0
BLOCK
  5
89
330
88
100
AcDbEntity
  8
0
100
AcDbBlockBegin
  2
SW_CENTERMARKSYMBOL_0
 70
     0
 10
0.0
 20
0.0
 30
0.0
  3
SW_CENTERMARKSYMBOL_0
  1

  0
LINE
  5
8B
330
88
100
AcDbEntity
  8
FORMAT
 62
     0
100
AcDbLine
 10
0.0
 20
0.0
 30
0.0
 11
0.0
 21
2.5
 31
0.0
  0
LINE
  5
8C
330
88
100
AcDbEntity
  8
FORMAT
 62
     0
100
AcDbLine
 10
0.0
 20
0.0
 30
0.0
 11
-2.5
 21
0.0
 31
0.0
  0
LINE
  5
8D
330
88
100
AcDbEntity
  8
FORMAT
 62
     0
100
AcDbLine
 10
0.0
 20
0.0
 30
0.0
 11
0.0
 21
-2.5
 31
0.0
  0
LINE
  5
8E
330
88
100
AcDbEntity
  8
FORMAT
 62
     0
100
AcDbLine
 10
0.0
 20
0.0
 30
0.0
 11
2.5
 21
0.0
 31
0.0
  0
LINE
  5
8F
330
88
100
AcDbEntity
  8
FORMAT
 62
     0
100
AcDbLine
 10
0.0
 20
5.0
 30
0.0
 11
0.0
 21
102.5
 31
0.0
  0
LINE
  5
90
330
88
100
AcDbEntity
  8
FORMAT
 62
     0
100
AcDbLine
 10
-5.0
 20
0.0
 30
0.0
 11
-102.5
 21
0.0
 31
0.0
  0
LINE
  5
91
330
88
100
AcDbEntity
  8
FORMAT
 62
     0
100
AcDbLine
 10
0.0
 20
-5.0
 30
0.0
 11
0.0
 21
-102.5
 31
0.0
  0
LINE
  5
92
330
88
100
AcDbEntity
  8
FORMAT
 62
     0
100
AcDbLine
 10
5.0
 20
0.0
 30
0.0
 11
102.5
 21
0.0
 31
0.0
  0
ENDBLK
  5
8A
330
88
100
AcDbEntity
  8
0
100
AcDbBlockEnd
  0
BLOCK
  5
B3
330
B2
100
AcDbEntity
  8
0
100
AcDbBlockBegin
  2
SW_CENTERMARKSYMBOL_1
 70
     0
 10
0.0
 20
0.0
 30
0.0
  3
SW_CENTERMARKSYMBOL_1
  1

  0
LINE
  5
B5
330
B2
100
AcDbEntity
  8
FORMAT
 62
     0
100
AcDbLine
 10
0.0
 20
0.0
 30
0.0
 11
0.0
 21
2.5
 31
0.0
  0
LINE
  5
B6
330
B2
100
AcDbEntity
  8
FORMAT
 62
     0
100
AcDbLine
 10
0.0
 20
0.0
 30
0.0
 11
-2.5
 21
0.0
 31
0.0
  0
LINE
  5
B7
330
B2
100
AcDbEntity
  8
FORMAT
 62
     0
100
AcDbLine
 10
0.0
 20
0.0
 30
0.0
 11
0.0
 21
-2.5
 31
0.0
  0
LINE
  5
B8
330
B2
100
AcDbEntity
  8
FORMAT
 62
     0
100
AcDbLine
 10
0.0
 20
0.0
 30
0.0
 11
2.5
 21
0.0
 31
0.0
  0
LINE
  5
B9
330
B2
100
AcDbEntity
  8
FORMAT
 62
     0
100
AcDbLine
 10
0.0
 20
5.0
 30
0.0
 11
0.0
 21
47.5
 31
0.0
  0
LINE
  5
BA
330
B2
100
AcDbEntity
  8
FORMAT
 62
     0
100
AcDbLine
 10
-5.0
 20
0.0
 30
0.0
 11
-47.5
 21
0.0
 31
0.0
  0
LINE
  5
BB
330
B2
100
AcDbEntity
  8
FORMAT
 62
     0
100
AcDbLine
 10
0.0
 20
-5.0
 30
0.0
 11
0.0
 21
-47.5
 31
0.0
  0
LINE
  5
BC
330
B2
100
AcDbEntity
  8
FORMAT
 62
     0
100
AcDbLine
 10
5.0
 20
0.0
 30
0.0
 11
47.5
 21
0.0
 31
0.0
  0
ENDBLK
  5
B4
330
B2
100
AcDbEntity
  8
0
100
AcDbBlockEnd
  0
ENDSEC
  0
SECTION
  2
ENTITIES
  0
LINE
  5
83
330
1F
100
AcDbEntity
  8
0
  6
Continuous
 62
     7
370
    25
100
AcDbLine
 10
169.94176998
 20
61.9403336882
 30
0.0
 11
287.6038125862
 21
61.9403336882
 31
0.0
  0
LINE
  5
84
330
1F
100
AcDbEntity
  8
0
  6
Continuous
 62
     7
370
    25
100
AcDbLine
 10
287.6038125862
 20
151.9403336882
 30
0.0
 11
169.9428339288
 21
151.9403336882
 31
0.0
  0
CIRCLE
  5
85
330
1F
100
AcDbEntity
  8
0
  6
Continuous
 62
     7
370
    25
100
AcDbCircle
 10
80.6038125862
 20
106.9403336882
 30
0.0
 40
81.8
  0
CIRCLE
  5
86
330
1F
100
AcDbEntity
  8
0
  6
Continuous
 62
     7
370
    25
100
AcDbCircle
 10
80.6038125862
 20
106.9403336882
 30
0.0
 40
100.0
  0
LINE
  5
87
330
1F
100
AcDbEntity
  8
0
  6
Continuous
 62
     7
370
    25
100
AcDbLine
 10
287.6038125862
 20
151.9403336882
 30
0.0
 11
287.6038125862
 21
61.9403336882
 31
0.0
  0
INSERT
  5
93
330
1F
100
AcDbEntity
  8
FORMAT
100
AcDbBlockReference
  2
SW_CENTERMARKSYMBOL_0
 10
80.6038125862
 20
106.9403336882
 30
0.0
  0
LINE
  5
94
330
1F
100
AcDbEntity
  8
0
  6
Continuous
 62
     7
370
    25
100
AcDbLine
 10
-19.3961874138
 20
-86.2624884019
 30
0.0
 11
-19.3961874138
 21
-567.2624884019
 31
0.0
  0
LINE
  5
95
330
1F
100
AcDbEntity
  8
0
  6
Continuous
 62
     7
370
    25
100
AcDbLine
 10
180.6038125862
 20
-281.7624884019
 30
0.0
 11
180.6038125862
 21
-86.2624884019
 31
0.0
  0
LINE
  5
96
330
1F
100
AcDbEntity
  8
0
  6
Continuous
 62
     7
370
    25
100
AcDbLine
 10
180.6038125862
 20
-567.2624884019
 30
0.0
 11
180.6038125862
 21
-371.7624884019
 31
0.0
  0
LINE
  5
97
330
1F
100
AcDbEntity
  8
0
  6
Continuous
 62
     7
370
    25
100
AcDbLine
 10
180.6038125862
 20
-371.7624884019
 30
0.0
 11
287.6038125862
 21
-371.7624884019
 31
0.0
  0
LINE
  5
98
330
1F
100
AcDbEntity
  8
0
  6
Continuous
 62
     7
370
    25
100
AcDbLine
 10
287.6038125862
 20
-281.7624884019
 30
0.0
 11
180.6038125862
 21
-281.7624884019
 31
0.0
  0
LWPOLYLINE
  5
99
330
1F
100
AcDbEntity
  8
0
  6
Continuous
 62
     7
370
    25
100
AcDbPolyline
 90
       27
 70
   128
 43
0.0
 10
180.5501541887
 20
-281.8820141215
 10
180.4482416868
 20
-282.109268782
 10
179.8489155827
 20
-283.46594733
 10
178.8212946598
 20
-285.8763809217
 10
177.4636375081
 20
-289.2548134019
 10
175.8608141519
 20
-293.6128828643
 10
174.0975342292
 20
-299.084410675
 10
172.399058641
 20
-305.5170842341
 10
171.6603521779
 20
-308.9788144286
 10
171.0247177412
 20
-312.5871545766
 10
170.500532052
 20
-316.4498149703
 10
170.132241725
 20
-320.4111401936
 10
169.9100335553
 20
-327.5377972377
 10
170.2742519134
 20
-334.8734494501
 10
171.0862356283
 20
-341.3250733226
 10
172.2963430283
 20
-347.5596069251
 10
173.8213304913
 20
-353.4927267918
 10
175.5067195963
 20
-358.8804235624
 10
177.2530634004
 20
-363.7229765337
 10
178.0747434495
 20
-365.821316691
 10
178.8131836208
 20
-367.6291075307
 10
179.4222224369
 20
-369.0719692227
 10
179.9184609015
 20
-370.2182057472
 10
180.2972230746
 20
-371.0772505569
 10
180.5284365572
 20
-371.5947365693
 10
180.6038125862
 20
-371.7624884019
 10
180.6038125862
 20
-371.7624884019
  0
LINE
  5
9A
330
1F
100
AcDbEntity
  8
0
  6
Continuous
 62
     7
370
    25
100
AcDbLine
 10
180.6038125862
 20
-567.2624884019
 30
0.0
 11
-19.3961874138
 21
-567.2624884019
 31
0.0
  0
LINE
  5
9B
330
1F
100
AcDbEntity
  8
0
  6
Continuous
 62
     7
370
    25
100
AcDbLine
 10
180.6038125862
 20
-86.2624884019
 30
0.0
 11
-19.3961874138
 21
-86.2624884019
 31
0.0
  0
LINE
  5
9C
330
1F
100
AcDbEntity
  8
0
  6
Continuous
 62
     7
370
    25
100
AcDbLine
 10
287.6038125862
 20
-281.7624884019
 30
0.0
 11
287.6038125862
 21
-371.7624884019
 31
0.0
  0
LINE
  5
9D
330
1F
100
AcDbEntity
  8
0
  6
Continuous
 62
     7
370
    25
100
AcDbLine
 10
180.6038125862
 20
588.5957783219
 30
0.0
 11
180.6038125862
 21
784.0957783219
 31
0.0
  0
LINE
  5
9E
330
1F
100
AcDbEntity
  8
0
  6
Continuous
 62
     7
370
    25
100
AcDbLine
 10
180.6038125862
 20
303.0957783219
 30
0.0
 11
180.6038125862
 21
498.7153040415
 31
0.0
  0
LINE
  5
9F
330
1F
100
AcDbEntity
  8
0
  6
Continuous
 62
     7
370
    25
100
AcDbLine
 10
-19.3961874138
 20
784.0957783219
 30
0.0
 11
-19.3961874138
 21
303.0957783219
 31
0.0
  0
LINE
  5
A0
330
1F
100
AcDbEntity
  8
0
  6
Continuous
 62
     7
370
    25
100
AcDbLine
 10
180.5502251595
 20
498.5957783219
 30
0.0
 11
287.6038125862
 21
498.5957783219
 31
0.0
  0
LINE
  5
A1
330
1F
100
AcDbEntity
  8
0
  6
Continuous
 62
     7
370
    25
100
AcDbLine
 10
287.6038125862
 20
588.5957783219
 30
0.0
 11
180.6038125862
 21
588.5957783219
 31
0.0
  0
SPLINE
  5
A2
330
1F
100
AcDbEntity
  8
0
  6
Continuous
 62
     7
370
    25
100
AcDbSpline
210
0.0
220
0.0
230
1.0
 70
     8
 71
     3
 72
    31
 73
    27
 74
     0
 42
0.000000001
 43
0.00000001
 40
0.0
 40
0.0
 40
0.0
 40
0.0
 40
0.0494143904827996
 40
0.1003440255979249
 40
0.1497380849837487
 40
0.2004359654956143
 40
0.2524127196233884
 40
0.305730955317798
 40
0.3606334903597849
 40
0.388873131340653
 40
0.4173588768190922
 40
0.4692138836185429
 40
0.4959612446851754
 40
0.5229546862222082
 40
0.5701835178918266
 40
0.6187323315162857
 40
0.6671384807540572
 40
0.71670962847717
 40
0.7699013638411539
 40
0.8245376331388323
 40
0.8517906147801707
 40
0.8792517104198695
 40
0.9074011865296374
 40
0.9358033742478508
 40
0.9865577351683604
 40
1.0
 40
1.0
 40
1.0
 40
1.0
 10
180.6038125861958
 20
588.5957783218885
 30
0.0
 10
180.5549950446139
 20
588.4878197080851
 30
0.0
 10
180.4558630186137
 20
588.2685920336938
 30
0.0
 10
179.6777967315613
 20
586.5145744630638
 30
0.0
 10
178.5122991639932
 20
583.7689385098987
 30
0.0
 10
177.0195411495744
 20
580.0119225060702
 30
0.0
 10
175.3084460185443
 20
575.2510003917051
 30
0.0
 10
173.5277117826769
 20
569.5123475930912
 30
0.0
 10
172.1518039845723
 20
563.9780316225331
 30
0.0
 10
171.222725726398
 20
559.131766412264
 30
0.0
 10
170.4813920964818
 20
554.2364819701615
 30
0.0
 10
170.0211774612723
 20
549.195640465302
 30
0.0
 10
169.8808024335239
 20
544.1580942088723
 30
0.0
 10
169.9542237863429
 20
539.3339151477056
 30
0.0
 10
170.3906538524343
 20
533.5251182944794
 30
0.0
 10
171.3654436768599
 20
526.9876753576615
 30
0.0
 10
172.7126528470874
 20
520.7898876387469
 30
0.0
 10
174.3283225938126
 20
514.982688240386
 30
0.0
 10
176.0900418041101
 20
509.6860824641141
 30
0.0
 10
177.5183020822328
 20
505.9132667671281
 30
0.0
 10
178.5307122834762
 20
503.4023082571395
 30
0.0
 10
179.2042486917509
 20
501.790973565644
 30
0.0
 10
179.776300007285
 20
500.4619048299778
 30
0.0
 10
180.3127282372296
 20
499.2418777717795
 30
0.0
 10
180.6437166104904
 20
498.5068613879412
 30
0.0
 10
180.5663534265124
 20
498.6792146366813
 30
0.0
 10
180.550154188701
 20
498.7153040414906
 30
0.0
  0
LINE
  5
A3
330
1F
100
AcDbEntity
  8
0
  6
Continuous
 62
     7
370
    25
100
AcDbLine
 10
-19.3961874138
 20
784.0957783219
 30
0.0
 11
180.6038125862
 21
784.0957783219
 31
0.0
  0
LINE
  5
A4
330
1F
100
AcDbEntity
  8
0
  6
Continuous
 62
     7
370
    25
100
AcDbLine
 10
-19.3961874138
 20
303.0957783219
 30
0.0
 11
180.6038125862
 21
303.0957783219
 31
0.0
  0
LINE
  5
A5
330
1F
100
AcDbEntity
  8
0
  6
Continuous
 62
     7
370
    25
100
AcDbLine
 10
287.6038125862
 20
588.5957783219
 30
0.0
 11
287.6038125862
 21
498.5957783219
 31
0.0
  0
LINE
  5
A6
330
1F
100
AcDbEntity
  8
0
  6
Continuous
 62
     7
370
    25
100
AcDbLine
 10
437.4883010308
 20
6.9403336882
 30
0.0
 11
918.4883010308
 21
6.9403336882
 31
0.0
  0
LINE
  5
A7
330
1F
100
AcDbEntity
  8
0
  6
Continuous
 62
     7
370
    25
100
AcDbLine
 10
918.4883010308
 20
206.9403336882
 30
0.0
 11
437.4883010308
 21
206.9403336882
 31
0.0
  0
LINE
  5
A8
330
1F
100
AcDbEntity
  8
0
  6
Continuous
 62
     7
370
    25
100
AcDbLine
 10
918.4883010308
 20
206.9403336882
 30
0.0
 11
918.4883010308
 21
6.9403336882
 31
0.0
  0
LINE
  5
A9
330
1F
100
AcDbEntity
  8
0
  6
Continuous
 62
     7
370
    25
100
AcDbLine
 10
437.4883010308
 20
206.9403336882
 30
0.0
 11
437.4883010308
 21
6.9403336882
 31
0.0
  0
LINE
  5
AA
330
1F
100
AcDbEntity
  8
0
  6
Continuous
 62
     7
370
    25
100
AcDbLine
 10
-143.9081290103
 20
206.9403336882
 30
0.0
 11
-624.9081290103
 21
206.9403336882
 31
0.0
  0
LINE
  5
AB
330
1F
100
AcDbEntity
  8
0
  6
Continuous
 62
     7
370
    25
100
AcDbLine
 10
-624.9081290103
 20
6.9403336882
 30
0.0
 11
-143.9081290103
 21
6.9403336882
 31
0.0
  0
CIRCLE
  5
AC
330
1F
100
AcDbEntity
  8
0
  6
Continuous
 62
     7
370
    25
100
AcDbCircle
 10
-384.4081290103
 20
106.9403336882
 30
0.0
 40
36.80000000000001
  0
CIRCLE
  5
AD
330
1F
100
AcDbEntity
  8
0
  6
Continuous
 62
     7
370
    25
100
AcDbCircle
 10
-384.4081290103
 20
106.9403336882
 30
0.0
 40
45.0
  0
LINE
  5
AE
330
1F
100
AcDbEntity
  8
0
  6
Continuous
 62
     7
370
    25
100
AcDbLine
 10
-624.9081290103
 20
106.9403336882
 30
0.0
 11
-624.9081290103
 21
206.9403336882
 31
0.0
  0
LINE
  5
AF
330
1F
100
AcDbEntity
  8
0
  6
Continuous
 62
     7
370
    25
100
AcDbLine
 10
-624.9081290103
 20
6.9403336882
 30
0.0
 11
-624.9081290103
 21
106.9403336882
 31
0.0
  0
LINE
  5
B0
330
1F
100
AcDbEntity
  8
0
  6
Continuous
 62
     7
370
    25
100
AcDbLine
 10
-143.9081290103
 20
106.9403336882
 30
0.0
 11
-143.9081290103
 21
206.9403336882
 31
0.0
  0
LINE
  5
B1
330
1F
100
AcDbEntity
  8
0
  6
Continuous
 62
     7
370
    25
100
AcDbLine
 10
-143.9081290103
 20
6.9403336882
 30
0.0
 11
-143.9081290103
 21
106.9403336882
 31
0.0
  0
INSERT
  5
BD
330
1F
100
AcDbEntity
  8
FORMAT
100
AcDbBlockReference
  2
SW_CENTERMARKSYMBOL_1
 10
-384.4081290103
 20
106.9403336882
 30
0.0
  0
LINE
  5
BE
330
1F
100
AcDbEntity
  8
0
  6
Continuous
 62
     7
370
    25
100
AcDbLine
 10
887.8576077242
 20
-318.8437119324
 30
0.0
 11
812.8142749425
 21
-275.5221180436
 31
0.0
  0
LINE
  5
BF
330
1F
100
AcDbEntity
  8
0
  6
Continuous
 62
     7
370
    25
100
AcDbLine
 10
722.8069602853
 20
-223.5620012942
 30
0.0
 11
547.7392459735
 21
-122.4975610391
 31
0.0
  0
LINE
  5
C0
330
1F
100
AcDbEntity
  8
0
  6
Continuous
 62
     7
370
    25
100
AcDbLine
 10
447.7473727098
 20
-295.7073335152
 30
0.0
 11
787.8657344606
 21
-492.0534844085
 31
0.0
  0
LINE
  5
C1
330
1F
100
AcDbEntity
  8
0
  6
Continuous
 62
     7
370
    25
100
AcDbLine
 10
757.334315726
 20
-307.5500167663
 30
0.0
 11
836.6717654069
 21
-261.7494819573
 31
0.0
  0
LINE
  5
C2
330
1F
100
AcDbEntity
  8
0
  6
Continuous
 62
     7
370
    25
100
AcDbLine
 10
791.6754224383
 20
-183.805084343
 30
0.0
 11
712.339666747
 21
-229.6046412326
 31
0.0
  0
SPLINE
  5
C3
330
1F
100
AcDbEntity
  8
0
  6
Continuous
 62
     7
370
    25
100
AcDbSpline
210
0.0
220
0.0
230
1.0
 70
     8
 71
     3
 72
    24
 73
    20
 74
     0
 42
0.000000001
 43
0.00000001
 40
0.0
 40
0.0
 40
0.0
 40
0.0
 40
0.0658777096968135
 40
0.1337754958335611
 40
0.1996261007519627
 40
0.2672149189478882
 40
0.3365086911862413
 40
0.407590884415868
 40
0.4807852156577785
 40
0.5184334159553706
 40
0.5564097150211081
 40
0.6255411775542662
 40
0.6611999172510922
 40
0.697186723683796
 40
0.7601507151780106
 40
0.8248744650579184
 40
0.8894080192689441
 40
0.9554947127834132
 40
0.9999999999999999
 40
0.9999999999999999
 40
0.9999999999999999
 40
0.9999999999999999
 10
706.6933631822719
 20
-248.0859346166547
 30
0.0
 10
706.7351822354498
 20
-250.0783901129046
 30
0.0
 10
706.8201026827434
 20
-254.1243978318103
 30
0.0
 10
707.5102044540353
 20
-260.8272004711355
 30
0.0
 10
708.6275310195833
 20
-267.8038220571495
 30
0.0
 10
710.2286032063927
 20
-274.9028870970097
 30
0.0
 10
712.3851565161767
 20
-282.0399482822778
 30
0.0
 10
715.1838276938818
 20
-289.0146713662647
 30
0.0
 10
718.1242659158037
 20
-294.4646359369432
 30
0.0
 10
720.8941362054969
 20
-298.4794697037772
 30
0.0
 10
723.8314196900008
 20
-302.0504371193375
 30
0.0
 10
727.0704305749713
 20
-305.0479139267193
 30
0.0
 10
730.5332096766252
 20
-307.3889432709843
 30
0.0
 10
733.996506445213
 20
-309.2096204769451
 30
0.0
 10
738.4114041295386
 20
-310.6908553396689
 30
0.0
 10
743.7281403748268
 20
-311.3154517841172
 30
0.0
 10
749.0452913367078
 20
-310.8030688722528
 30
0.0
 10
753.6672923844438
 20
-309.5437640789248
 30
0.0
 10
756.232183102611
 20
-308.0332506674014
 30
0.0
 10
757.2643664249152
 20
-307.4253780822468
 30
0.0
  0
SPLINE
  5
C4
330
1F
100
AcDbEntity
  8
0
  6
Continuous
 62
     7
370
    25
100
AcDbSpline
210
0.0
220
0.0
230
1.0
 70
     8
 71
     3
 72
    16
 73
    12
 74
     0
 42
0.000000001
 43
0.00000001
 40
0.0
 40
0.0
 40
0.0
 40
0.0
 40
0.0122299982903224
 40
0.2298993473575528
 40
0.3416122502293791
 40
0.4541968578358683
 40
0.5612328963456558
 40
0.6691117412269034
 40
0.7797688229015763
 40
0.8914361715877472
 40
1.0
 40
1.0
 40
1.0
 40
1.0
 10
712.3544457603637
 20
-229.6328119934738
 30
0.0
 10
712.3020785898234
 20
-229.6509322508946
 30
0.0
 10
711.3176812052625
 20
-229.9915566120843
 30
0.0
 10
710.288296349183
 20
-231.2828271112921
 30
0.0
 10
709.0788064285248
 20
-233.2360124516096
 30
0.0
 10
708.3392567253983
 20
-235.0420909342671
 30
0.0
 10
707.7391570422634
 20
-237.1038533112314
 30
0.0
 10
707.2747600793664
 20
-239.4284059138783
 30
0.0
 10
706.9401455527772
 20
-242.0593852724243
 30
0.0
 10
706.7315065538635
 20
-244.9393466619204
 30
0.0
 10
706.7059576267712
 20
-247.0469722568972
 30
0.0
 10
706.6933631822719
 20
-248.0859346166547
 30
0.0
  0
LWPOLYLINE
  5
C5
330
1F
100
AcDbEntity
  8
0
  6
Continuous
 62
     7
370
    25
100
AcDbPolyline
 90
      107
 70
   128
 43
0.0
 10
568.4539874603
 20
-168.282041686
 10
568.3298005424
 20
-163.516494228
 10
567.9576759998
 20
-158.9110690927
 10
567.3389209334
 20
-154.4819430038
 10
566.4757087431
 20
-150.2446734282
 10
565.3710714932
 20
-146.2141439299
 10
564.0288892622
 20
-142.4045118908
 10
562.4538765142
 20
-138.8291587822
 10
560.651565539
 20
-135.5006431625
 10
558.6282870195
 20
-132.430656564
 10
556.3911477953
 20
-129.6299824268
 10
553.9480058996
 20
-127.1084582208
 10
551.3074429574
 20
-124.8749408918
 10
548.4787340423
 20
-122.9372757509
 10
545.4718150976
 20
-121.3022689175
 10
542.2972480356
 20
-119.9756634128
 10
538.9661836391
 20
-118.962118987
 10
535.4903223931
 20
-118.2651957519
 10
531.8818733871
 20
-117.8873416757
 10
528.1535114299
 20
-117.8298839847
 10
524.3183325286
 20
-118.093024501
 10
520.3898078893
 20
-118.6758389341
 10
516.3817365978
 20
-119.576280127
 10
512.3081971508
 20
-120.7911852472
 10
508.1834980042
 20
-122.316286896
 10
504.0221273141
 20
-124.1462280984
 10
499.8387020469
 20
-126.2745811192
 10
495.6479166364
 20
-128.6938700406
 10
491.4644913692
 20
-131.3955970223
 10
487.3031206791
 20
-134.3702721495
 10
483.1784215325
 20
-137.6074467674
 10
479.1048820855
 20
-141.0957501821
 10
475.096810794
 20
-144.8229296007
 10
471.1682861547
 20
-148.7758931695
 10
467.3331072534
 20
-152.9407559598
 10
463.6047452962
 20
-157.3028887391
 10
459.9962962902
 20
-161.846969357
 10
456.5204350442
 20
-166.5570365646
 10
453.1893706477
 20
-171.4165460789
 10
450.0148035857
 20
-176.4084286957
 10
447.007884641
 20
-181.5151502452
 10
444.1791757259
 20
-186.7187731816
 10
441.5386127837
 20
-192.0010195896
 10
439.095470888
 20
-197.3433353861
 10
436.8583316638
 20
-202.726955492
 10
434.8350531443
 20
-208.1329697453
 10
433.0327421691
 20
-213.5423893238
 10
431.4577294211
 20
-218.936213444
 10
430.1155471901
 20
-224.2954961018
 10
429.0109099402
 20
-229.6014126215
 10
428.1476977499
 20
-234.8353257778
 10
427.5289426835
 20
-239.9788512599
 10
427.1568181409
 20
-245.0139222469
 10
427.032631223
 20
-249.9228528683
 10
427.1568181409
 20
-254.6884003262
 10
427.5289426835
 20
-259.2938254616
 10
428.1476977499
 20
-263.7229515505
 10
429.0109099402
 20
-267.960221126
 10
430.1155471901
 20
-271.9907506243
 10
431.4577294211
 20
-275.8003826635
 10
433.0327421691
 20
-279.375735772
 10
434.8350531443
 20
-282.7042513918
 10
436.8583316638
 20
-285.7742379902
 10
439.095470888
 20
-288.5749121275
 10
441.5386127837
 20
-291.0964363334
 10
444.1791757259
 20
-293.3299536624
 10
447.007884641
 20
-295.2676188033
 10
450.0148035857
 20
-296.9026256367
 10
453.1893706477
 20
-298.2292311414
 10
456.5204350442
 20
-299.2427755672
 10
459.9962962902
 20
-299.9396988023
 10
463.6047452962
 20
-300.3175528785
 10
467.3331072534
 20
-300.3750105696
 10
471.1682861547
 20
-300.1118700532
 10
475.096810794
 20
-299.5290556201
 10
479.1048820855
 20
-298.6286144272
 10
483.1784215325
 20
-297.4137093071
 10
487.3031206791
 20
-295.8886076582
 10
491.4644913692
 20
-294.0586664558
 10
495.6479166364
 20
-291.9303134351
 10
499.8387020469
 20
-289.5110245136
 10
504.0221273141
 20
-286.809297532
 10
508.1834980042
 20
-283.8346224048
 10
512.3081971508
 20
-280.5974477868
 10
516.3817365978
 20
-277.1091443721
 10
520.3898078893
 20
-273.3819649535
 10
524.3183325286
 20
-269.4290013847
 10
528.1535114299
 20
-265.2641385945
 10
531.8818733871
 20
-260.9020058151
 10
535.4903223931
 20
-256.3579251972
 10
538.9661836391
 20
-251.6478579897
 10
542.2972480356
 20
-246.7883484753
 10
545.4718150976
 20
-241.7964658585
 10
548.4787340423
 20
-236.6897443091
 10
551.3074429574
 20
-231.4861213727
 10
553.9480058996
 20
-226.2038749646
 10
556.3911477953
 20
-220.8615591681
 10
558.6282870195
 20
-215.4779390622
 10
560.651565539
 20
-210.0719248089
 10
562.4538765142
 20
-204.6625052304
 10
564.0288892622
 20
-199.2686811103
 10
565.3710714932
 20
-193.9093984525
 10
566.4757087431
 20
-188.6034819327
 10
567.3389209334
 20
-183.3695687764
 10
567.9576759998
 20
-178.2260432944
 10
568.3298005424
 20
-173.1909723074
 10
568.4539874603
 20
-168.282041686
  0
LWPOLYLINE
  5
C6
330
1F
100
AcDbEntity
  8
0
  6
Continuous
 62
     7
370
    25
100
AcDbPolyline
 90
       15
 70
   128
 43
0.0
 10
908.572349211
 20
-364.6281925793
 10
908.4481622931
 20
-359.8626451214
 10
908.0760377505
 20
-355.257219986
 10
907.4572826842
 20
-350.8280938971
 10
906.5940704939
 20
-346.5908243216
 10
905.4894332439
 20
-342.5602948233
 10
904.1472510129
 20
-338.7506627841
 10
902.5722382649
 20
-335.1753096756
 10
900.7699272897
 20
-331.8467940558
 10
898.7466487702
 20
-328.7768074574
 10
896.509509546
 20
-325.9761333201
 10
894.0663676503
 20
-323.4546091142
 10
891.4258047081
 20
-321.2210917852
 10
888.597095793
 20
-319.2834266443
 10
887.8576077242
 20
-318.8437119324
  0
LWPOLYLINE
  5
C7
330
1F
100
AcDbEntity
  8
0
  6
Continuous
 62
     7
370
    25
100
AcDbPolyline
 90
       41
 70
   128
 43
0.0
 10
787.8657344606
 20
-492.0534844085
 10
790.1331653365
 20
-493.2487765301
 10
793.3077323984
 20
-494.5753820348
 10
796.6387967949
 20
-495.5889264606
 10
800.1146580409
 20
-496.2858496957
 10
803.7231070469
 20
-496.6637037719
 10
807.4514690042
 20
-496.7211614629
 10
811.2866479054
 20
-496.4580209466
 10
815.2151725448
 20
-495.8752065135
 10
819.2232438363
 20
-494.9747653206
 10
823.2967832833
 20
-493.7598602004
 10
827.4214824299
 20
-492.2347585516
 10
831.5828531199
 20
-490.4048173492
 10
835.7662783871
 20
-488.2764643284
 10
839.9570637976
 20
-485.857175407
 10
844.1404890648
 20
-483.1554484253
 10
848.3018597549
 20
-480.1807732981
 10
852.4265589015
 20
-476.9435986802
 10
856.5000983485
 20
-473.4552952655
 10
860.50816964
 20
-469.7281158469
 10
864.4366942794
 20
-465.7751522781
 10
868.2718731806
 20
-461.6102894878
 10
872.0002351379
 20
-457.2481567085
 10
875.6086841439
 20
-452.7040760906
 10
879.0845453898
 20
-447.994008883
 10
882.4156097864
 20
-443.1344993687
 10
885.5901768483
 20
-438.1426167519
 10
888.597095793
 20
-433.0358952024
 10
891.4258047081
 20
-427.832272266
 10
894.0663676503
 20
-422.550025858
 10
896.509509546
 20
-417.2077100615
 10
898.7466487702
 20
-411.8240899556
 10
900.7699272897
 20
-406.4180757023
 10
902.5722382649
 20
-401.0086561238
 10
904.1472510129
 20
-395.6148320036
 10
905.4894332439
 20
-390.2555493458
 10
906.5940704939
 20
-384.9496328261
 10
907.4572826842
 20
-379.7157196698
 10
908.0760377505
 20
-374.5721941877
 10
908.4481622931
 20
-369.5371232007
 10
908.572349211
 20
-364.6281925793
  0
LWPOLYLINE
  5
C8
330
1F
100
AcDbEntity
  8
0
  6
Continuous
 62
     7
370
    25
100
AcDbPolyline
 90
       97
 70
   128
 43
0.0
 10
555.5846440427
 20
-175.7113555036
 10
555.4608013051
 20
-171.4143746713
 10
555.089803406
 20
-167.2787799518
 10
554.4732390153
 20
-163.3222805967
 10
553.6137483564
 20
-159.5618189437
 10
552.5150119003
 20
-156.0134978668
 10
551.1817346051
 20
-152.6925118216
 10
549.6196257689
 20
-149.6130817803
 10
547.8353745816
 20
-146.788394335
 10
545.8366214806
 20
-144.230545231
 10
543.6319254336
 20
-141.9504875709
 10
541.2307272876
 20
-139.9579849116
 10
538.6433093416
 20
-138.2615694555
 10
535.8807513166
 20
-136.8685055138
 10
532.95488291
 20
-135.7847584003
 10
529.8782331397
 20
-135.0149688866
 10
526.6639766922
 20
-134.5624333294
 10
523.3258775071
 20
-134.4290895555
 10
519.8782298376
 20
-134.6155085635
 10
516.3357970404
 20
-135.1208920785
 10
512.7137483564
 20
-135.9430759706
 10
509.0275939543
 20
-137.0785395224
 10
505.2931185131
 20
-138.5224205045
 10
501.5263136299
 20
-140.2685359968
 10
497.7433093416
 20
-142.3094088649
 10
493.9603050533
 20
-144.6362997776
 10
490.1935001702
 20
-147.239244631
 10
486.459024729
 20
-150.1070972155
 10
482.7728703269
 20
-153.2275769462
 10
479.1508216429
 20
-156.5873214496
 10
475.6083888457
 20
-160.1719437841
 10
472.1607411762
 20
-163.9660940465
 10
468.8226419911
 20
-167.9535251029
 10
465.6083855436
 20
-172.1171621614
 10
462.5317357733
 20
-176.4391758888
 10
459.6058673667
 20
-180.9010587588
 10
456.8433093416
 20
-185.4837043041
 10
454.2558913957
 20
-190.1674889327
 10
451.8546932497
 20
-194.93235596
 10
449.6499972027
 20
-199.7579014936
 10
447.6512441017
 20
-204.623461807
 10
445.8669929144
 20
-209.5082018237
 10
444.3048840782
 20
-214.3912043372
 10
442.971606783
 20
-219.251559581
 10
441.8728703269
 20
-224.0684547678
 10
441.013379668
 20
-228.8212632129
 10
440.3968152773
 20
-233.4896326609
 10
440.0258173782
 20
-238.0535724371
 10
439.9019746406
 20
-242.4935390507
 10
440.0258173782
 20
-246.790519883
 10
440.3968152773
 20
-250.9261146024
 10
441.013379668
 20
-254.8826139575
 10
441.8728703269
 20
-258.6430756105
 10
442.971606783
 20
-262.1913966874
 10
444.3048840782
 20
-265.5123827326
 10
445.8669929144
 20
-268.5918127739
 10
447.6512441017
 20
-271.4165002192
 10
449.6499972027
 20
-273.9743493232
 10
451.8546932497
 20
-276.2544069833
 10
454.2558913957
 20
-278.2469096426
 10
456.8433093416
 20
-279.9433250988
 10
459.6058673667
 20
-281.3363890404
 10
462.5317357733
 20
-282.4201361539
 10
465.6083855436
 20
-283.1899256677
 10
468.8226419911
 20
-283.6424612249
 10
472.1607411762
 20
-283.7758049987
 10
475.6083888457
 20
-283.5893859908
 10
479.1508216429
 20
-283.0840024758
 10
482.7728703269
 20
-282.2618185836
 10
486.459024729
 20
-281.1263550318
 10
490.1935001702
 20
-279.6824740498
 10
493.9603050534
 20
-277.9363585574
 10
497.7433093416
 20
-275.8954856894
 10
501.5263136299
 20
-273.5685947766
 10
505.2931185131
 20
-270.9656499232
 10
509.0275939543
 20
-268.0977973387
 10
512.7137483564
 20
-264.9773176081
 10
516.3357970404
 20
-261.6175731046
 10
519.8782298376
 20
-258.0329507701
 10
523.3258775071
 20
-254.2388005077
 10
526.6639766922
 20
-250.2513694513
 10
529.8782331397
 20
-246.0877323929
 10
532.95488291
 20
-241.7657186655
 10
535.8807513166
 20
-237.3038357954
 10
538.6433093416
 20
-232.7211902502
 10
541.2307272876
 20
-228.0374056215
 10
543.6319254336
 20
-223.2725385943
 10
545.8366214806
 20
-218.4469930606
 10
547.8353745816
 20
-213.5814327473
 10
549.6196257689
 20
-208.6966927305
 10
551.1817346051
 20
-203.813690217
 10
552.5150119003
 20
-198.9533349732
 10
553.6137483564
 20
-194.1364397864
 10
554.4732390153
 20
-189.3836313413
 10
555.089803406
 20
-184.7152618933
 10
555.4608013051
 20
-180.1513221172
 10
555.5846440427
 20
-175.7113555036
  0
LWPOLYLINE
  5
C9
330
1F
100
AcDbEntity
  8
0
  6
Continuous
 62
     7
370
    25
100
AcDbPolyline
 90
       65
 70
   128
 43
0.0
 10
840.1951234703
 20
-237.7991924077
 10
840.0698226931
 20
-234.7815699801
 10
839.6951270766
 20
-231.6483397081
 10
839.0746451442
 20
-228.429676312
 10
838.2143524764
 20
-225.1565772799
 10
837.1225341616
 20
-221.8605643446
 10
835.8097050071
 20
-218.5733799126
 10
834.2885082755
 20
-215.3266813668
 10
832.5735939226
 20
-212.1517361892
 10
830.6814775113
 20
-209.0791208372
 10
828.6303811569
 20
-206.1384262766
 10
826.4400580386
 20
-203.3579730033
 10
824.1316021653
 20
-200.7645383024
 10
821.727245229
 20
-198.3830983678
 10
819.2501425014
 20
-196.2365877679
 10
816.7241498359
 20
-194.3456785732
 10
814.1735939226
 20
-192.7285812728
 10
811.6230380094
 20
-191.4008693977
 10
809.0970453438
 20
-190.3753295392
 10
806.6199426162
 20
-189.6618382067
 10
804.2155856799
 20
-189.2672667117
 10
801.9071298066
 20
-189.1954149935
 10
799.7168066883
 20
-189.4469750233
 10
797.6657103339
 20
-190.0195241406
 10
795.7735939226
 20
-190.9075483844
 10
794.0586795698
 20
-192.1024955958
 10
792.5374828381
 20
-193.5928577798
 10
791.2246536837
 20
-195.364281934
 10
790.1328353689
 20
-197.3997082753
 10
789.272542701
 20
-199.6795345355
 10
788.6520607687
 20
-202.1818047414
 10
788.2773651521
 20
-204.882420663
 10
788.152064375
 20
-207.7553738926
 10
788.2773651521
 20
-210.7729963202
 10
788.6520607687
 20
-213.9062265922
 10
789.272542701
 20
-217.1248899883
 10
790.1328353689
 20
-220.3979890204
 10
791.2246536837
 20
-223.6940019557
 10
792.5374828381
 20
-226.9811863877
 10
794.0586795698
 20
-230.2278849335
 10
795.7735939226
 20
-233.4028301111
 10
797.6657103339
 20
-236.4754454631
 10
799.7168066883
 20
-239.4161400237
 10
801.9071298066
 20
-242.196593297
 10
804.2155856799
 20
-244.7900279979
 10
806.6199426162
 20
-247.1714679325
 10
809.0970453438
 20
-249.3179785324
 10
811.6230380094
 20
-251.2088877271
 10
814.1735939226
 20
-252.8259850275
 10
816.7241498359
 20
-254.1536969026
 10
819.2501425014
 20
-255.1792367611
 10
821.727245229
 20
-255.8927280936
 10
824.1316021653
 20
-256.2872995886
 10
826.4400580386
 20
-256.3591513068
 10
828.630381157
 20
-256.107591277
 10
830.6814775113
 20
-255.5350421597
 10
832.5735939226
 20
-254.6470179159
 10
834.2885082755
 20
-253.4520707045
 10
835.8097050071
 20
-251.9617085205
 10
837.1225341616
 20
-250.1902843663
 10
838.2143524764
 20
-248.154858025
 10
839.0746451442
 20
-245.8750317648
 10
839.6951270766
 20
-243.3727615589
 10
840.0698226931
 20
-240.6721456373
 10
840.1951234703
 20
-237.7991924077
  0
LWPOLYLINE
  5
CA
330
1F
100
AcDbEntity
  8
0
  6
Continuous
 62
     7
370
    25
100
AcDbPolyline
 90
       72
 70
   128
 43
0.0
 10
845.993399076
 20
-241.1464656662
 10
845.8688825169
 20
-237.8271154803
 10
845.4963073505
 20
-234.3899799512
 10
844.8785894826
 20
-230.8619593245
 10
844.0205633931
 20
-227.2706651452
 10
842.9289442994
 20
-223.6442041593
 10
841.6122756011
 20
-220.0109583412
 10
840.080862016
 20
-216.3993627654
 10
838.3466889316
 20
-212.8376830642
 10
836.4233286037
 20
-209.3537942102
 10
834.3258339346
 20
-205.9749623574
 10
832.070620664
 20
-202.7276314463
 10
829.6753388935
 20
-199.637216244
 10
827.1587349505
 20
-196.7279034398
 10
824.5405046731
 20
-194.0224623508
 10
821.8411392631
 20
-191.5420667218
 10
819.0817649147
 20
-189.3061290117
 10
816.2839774736
 20
-187.3321484645
 10
813.4696734198
 20
-185.6355741546
 10
810.6608784984
 20
-184.2296840761
 10
807.8795753379
 20
-183.1254812252
 10
805.1475314066
 20
-182.3316074862
 10
802.4861286524
 20
-181.8542759975
 10
799.9161961604
 20
-181.6972225253
 10
797.4578471368
 20
-181.8616762259
 10
795.1303214959
 20
-182.3463500261
 10
792.9518352815
 20
-183.1474506963
 10
790.939438102
 20
-184.2587085376
 10
789.1088796939
 20
-185.6714264506
 10
787.4744866586
 20
-187.3745480022
 10
786.0490503376
 20
-189.3547439572
 10
784.8437267028
 20
-191.5965165973
 10
783.8679490459
 20
-194.0823210122
 10
783.1293541501
 20
-196.7927024118
 10
782.6337225219
 20
-199.706448387
 10
782.3849331507
 20
-202.8007549247
 10
782.3849331507
 20
-206.051404881
 10
782.6337225219
 20
-209.4329575125
 10
783.1293541501
 20
-212.918947585
 10
783.8679490459
 20
-216.4820924998
 10
784.8437267028
 20
-220.0945058167
 10
786.0490503376
 20
-223.7279155038
 10
787.4744866586
 20
-227.3538852037
 10
789.1088796939
 20
-230.9440367874
 10
790.939438102
 20
-234.4702724509
 10
792.9518352815
 20
-237.9049946193
 10
795.1303214959
 20
-241.2213219345
 10
797.4578471368
 20
-244.3932996388
 10
799.9161961604
 20
-247.3961027061
 10
802.4861286524
 20
-250.2062301309
 10
805.1475314066
 20
-252.801688856
 10
807.8795753379
 20
-255.1621658979
 10
810.6608784984
 20
-257.2691873233
 10
813.4696734198
 20
-259.1062628326
 10
816.2839774736
 20
-260.6590148193
 10
819.0817649147
 20
-261.9152908937
 10
821.8411392631
 20
-262.8652589923
 10
824.5405046731
 20
-263.5014843265
 10
827.1587349505
 20
-263.8189875707
 10
829.6753388935
 20
-263.8152838314
 10
832.070620664
 20
-263.4904020954
 10
834.3258339346
 20
-262.8468850027
 10
836.4233286037
 20
-261.8897689472
 10
838.3466889316
 20
-260.6265446597
 10
840.080862016
 20
-259.0670985829
 10
841.6122756011
 20
-257.2236354968
 10
842.9289442994
 20
-255.1105829994
 10
844.0205633931
 20
-252.7444785917
 10
844.8785894826
 20
-250.1438402486
 10
845.4963073505
 20
-247.3290214913
 10
845.8688825169
 20
-244.3220520929
 10
845.993399076
 20
-241.1464656662
  0
ENDSEC
  0
SECTION
  2
OBJECTS
  0
DICTIONARY
  5
C
330
0
100
AcDbDictionary
281
     1
  3
ACAD_GROUP
350
D
  3
ACAD_LAYOUT
350
1A
  3
ACAD_MLINESTYLE
350
17
  3
ACAD_PLOTSETTINGS
350
19
  3
ACAD_PLOTSTYLENAME
350
E
  3
ACAD_SCALELIST
350
47
  0
DICTIONARY
  5
D
102
{ACAD_REACTORS
330
C
102
}
330
C
100
AcDbDictionary
281
     1
  0
DICTIONARY
  5
1A
102
{ACAD_REACTORS
330
C
102
}
330
C
100
AcDbDictionary
281
     1
  3
Layout1
350
1E
  3
Layout2
350
26
  3
Model
350
22
  0
DICTIONARY
  5
17
102
{ACAD_REACTORS
330
C
102
}
330
C
100
AcDbDictionary
281
     1
  3
Standard
350
18
  0
DICTIONARY
  5
19
102
{ACAD_REACTORS
330
C
102
}
330
C
100
AcDbDictionary
281
     1
  0
ACDBDICTIONARYWDFLT
  5
E
102
{ACAD_REACTORS
330
C
102
}
330
C
100
AcDbDictionary
281
     1
  3
Normal
350
F
100
AcDbDictionaryWithDefault
340
F
  0
DICTIONARY
  5
47
102
{ACAD_REACTORS
330
C
102
}
330
C
100
AcDbDictionary
281
     1
  3
A0
350
48
  3
A1
350
49
  3
A2
350
4A
  3
A3
350
4B
  3
A4
350
4C
  3
A5
350
4D
  3
A6
350
4E
  3
A7
350
4F
  3
A8
350
50
  3
A9
350
51
  3
B0
350
52
  3
B1
350
53
  3
B2
350
54
  3
B3
350
55
  3
B4
350
56
  3
B5
350
57
  3
B6
350
58
  3
B7
350
59
  3
B8
350
5A
  3
B9
350
5B
  3
C0
350
5C
  3
C1
350
5D
  3
C2
350
5E
  3
C3
350
5F
  3
C4
350
60
  3
C5
350
61
  3
C6
350
62
  3
C7
350
63
  3
C8
350
64
  3
C9
350
65
  3
D0
350
66
  3
D1
350
67
  3
D2
350
68
  0
LAYOUT
  5
1E
102
{ACAD_REACTORS
330
1A
102
}
330
1A
100
AcDbPlotSettings
  1

  2
none_device
  4

  6

 40
0.0
 41
0.0
 42
0.0
 43
0.0
 44
0.0
 45
0.0
 46
0.0
 47
0.0
 48
0.0
 49
0.0
140
0.0
141
0.0
142
1.0
143
1.0
 70
   688
 72
     1
 73
     0
 74
     5
  7

 75
    16
147
1.0
148
0.0
149
0.0
100
AcDbLayout
  1
Layout1
 70
     1
 71
     1
 10
0.0
 20
0.0
 11
420.0
 21
297.0
 12
0.0
 22
0.0
 32
0.0
 14
1.0000000000E+20
 24
1.0000000000E+20
 34
1.0000000000E+20
 15
-1.0000000000E+20
 25
-1.0000000000E+20
 35
-1.0000000000E+20
146
0.0
 13
0.0
 23
0.0
 33
0.0
 16
1.0
 26
0.0
 36
0.0
 17
0.0
 27
1.0
 37
0.0
 76
     0
330
1B
  0
LAYOUT
  5
26
102
{ACAD_REACTORS
330
1A
102
}
330
1A
100
AcDbPlotSettings
  1

  2
none_device
  4

  6

 40
0.0
 41
0.0
 42
0.0
 43
0.0
 44
0.0
 45
0.0
 46
0.0
 47
0.0
 48
0.0
 49
0.0
140
0.0
141
0.0
142
1.0
143
1.0
 70
   688
 72
     1
 73
     0
 74
     5
  7

 75
    16
147
1.0
148
0.0
149
0.0
100
AcDbLayout
  1
Layout2
 70
     1
 71
     2
 10
0.0
 20
0.0
 11
0.0
 21
0.0
 12
0.0
 22
0.0
 32
0.0
 14
0.0
 24
0.0
 34
0.0
 15
0.0
 25
0.0
 35
0.0
146
0.0
 13
0.0
 23
0.0
 33
0.0
 16
1.0
 26
0.0
 36
0.0
 17
0.0
 27
1.0
 37
0.0
 76
     0
330
23
  0
LAYOUT
  5
22
102
{ACAD_REACTORS
330
1A
102
}
330
1A
100
AcDbPlotSettings
  1

  2
none_device
  4
Letter_(8.50_x_11.00_Inches)
  6

 40
6.35
 41
6.35
 42
6.35000508
 43
6.35000508
 44
215.9
 45
279.4
 46
0.0
 47
0.0
 48
0.0
 49
0.0
140
0.0
141
0.0
142
1.0
143
1.0
 70
  1712
 72
     1
 73
     0
 74
     0
  7

 75
     0
147
1.0
148
0.0
149
0.0
100
AcDbLayout
  1
Model
 70
     1
 71
     0
 10
0.0
 20
0.0
 11
279.4
 21
215.9
 12
0.0
 22
0.0
 32
0.0
 14
0.0
 24
0.0
 34
0.0
 15
279.4
 25
215.9
 35
0.0
146
0.0
 13
0.0
 23
0.0
 33
0.0
 16
1.0
 26
0.0
 36
0.0
 17
0.0
 27
1.0
 37
0.0
 76
     0
330
1F
331
29
  0
MLINESTYLE
  5
18
102
{ACAD_REACTORS
330
17
102
}
330
17
100
AcDbMlineStyle
  2
Standard
 70
     0
  3

 62
   256
 51
90.0
 52
90.0
 71
     2
 49
0.5
 62
   256
  6
BYLAYER
 49
-0.5
 62
   256
  6
BYLAYER
  0
ACDBPLACEHOLDER
  5
F
102
{ACAD_REACTORS
330
E
102
}
330
E
  0
SCALE
  5
48
102
{ACAD_REACTORS
330
47
102
}
330
47
100
AcDbScale
 70
     0
300
1:1
140
1.0
141
1.0
290
     1
  0
SCALE
  5
49
102
{ACAD_REACTORS
330
47
102
}
330
47
100
AcDbScale
 70
     0
300
1:2
140
1.0
141
2.0
290
     0
  0
SCALE
  5
4A
102
{ACAD_REACTORS
330
47
102
}
330
47
100
AcDbScale
 70
     0
300
1:4
140
1.0
141
4.0
290
     0
  0
SCALE
  5
4B
102
{ACAD_REACTORS
330
47
102
}
330
47
100
AcDbScale
 70
     0
300
1:5
140
1.0
141
5.0
290
     0
  0
SCALE
  5
4C
102
{ACAD_REACTORS
330
47
102
}
330
47
100
AcDbScale
 70
     0
300
1:8
140
1.0
141
8.0
290
     0
  0
SCALE
  5
4D
102
{ACAD_REACTORS
330
47
102
}
330
47
100
AcDbScale
 70
     0
300
1:10
140
1.0
141
10.0
290
     0
  0
SCALE
  5
4E
102
{ACAD_REACTORS
330
47
102
}
330
47
100
AcDbScale
 70
     0
300
1:16
140
1.0
141
16.0
290
     0
  0
SCALE
  5
4F
102
{ACAD_REACTORS
330
47
102
}
330
47
100
AcDbScale
 70
     0
300
1:20
140
1.0
141
20.0
290
     0
  0
SCALE
  5
50
102
{ACAD_REACTORS
330
47
102
}
330
47
100
AcDbScale
 70
     0
300
1:30
140
1.0
141
30.0
290
     0
  0
SCALE
  5
51
102
{ACAD_REACTORS
330
47
102
}
330
47
100
AcDbScale
 70
     0
300
1:40
140
1.0
141
40.0
290
     0
  0
SCALE
  5
52
102
{ACAD_REACTORS
330
47
102
}
330
47
100
AcDbScale
 70
     0
300
1:50
140
1.0
141
50.0
290
     0
  0
SCALE
  5
53
102
{ACAD_REACTORS
330
47
102
}
330
47
100
AcDbScale
 70
     0
300
1:100
140
1.0
141
100.0
290
     0
  0
SCALE
  5
54
102
{ACAD_REACTORS
330
47
102
}
330
47
100
AcDbScale
 70
     0
300
2:1
140
2.0
141
1.0
290
     0
  0
SCALE
  5
55
102
{ACAD_REACTORS
330
47
102
}
330
47
100
AcDbScale
 70
     0
300
4:1
140
4.0
141
1.0
290
     0
  0
SCALE
  5
56
102
{ACAD_REACTORS
330
47
102
}
330
47
100
AcDbScale
 70
     0
300
8:1
140
8.0
141
1.0
290
     0
  0
SCALE
  5
57
102
{ACAD_REACTORS
330
47
102
}
330
47
100
AcDbScale
 70
     0
300
10:1
140
10.0
141
1.0
290
     0
  0
SCALE
  5
58
102
{ACAD_REACTORS
330
47
102
}
330
47
100
AcDbScale
 70
     0
300
100:1
140
100.0
141
1.0
290
     0
  0
SCALE
  5
59
102
{ACAD_REACTORS
330
47
102
}
330
47
100
AcDbScale
 70
     0
300
1/128" = 1'-0"
140
0.0078125
141
12.0
290
     0
  0
SCALE
  5
5A
102
{ACAD_REACTORS
330
47
102
}
330
47
100
AcDbScale
 70
     0
300
1/64" = 1'-0"
140
0.015625
141
12.0
290
     0
  0
SCALE
  5
5B
102
{ACAD_REACTORS
330
47
102
}
330
47
100
AcDbScale
 70
     0
300
1/32" = 1'-0"
140
0.03125
141
12.0
290
     0
  0
SCALE
  5
5C
102
{ACAD_REACTORS
330
47
102
}
330
47
100
AcDbScale
 70
     0
300
1/16" = 1'-0"
140
0.0625
141
12.0
290
     0
  0
SCALE
  5
5D
102
{ACAD_REACTORS
330
47
102
}
330
47
100
AcDbScale
 70
     0
300
3/32" = 1'-0"
140
0.09375
141
12.0
290
     0
  0
SCALE
  5
5E
102
{ACAD_REACTORS
330
47
102
}
330
47
100
AcDbScale
 70
     0
300
1/8" = 1'-0"
140
0.125
141
12.0
290
     0
  0
SCALE
  5
5F
102
{ACAD_REACTORS
330
47
102
}
330
47
100
AcDbScale
 70
     0
300
3/16" = 1'-0"
140
0.1875
141
12.0
290
     0
  0
SCALE
  5
60
102
{ACAD_REACTORS
330
47
102
}
330
47
100
AcDbScale
 70
     0
300
1/4" = 1'-0"
140
0.25
141
12.0
290
     0
  0
SCALE
  5
61
102
{ACAD_REACTORS
330
47
102
}
330
47
100
AcDbScale
 70
     0
300
3/8" = 1'-0"
140
0.375
141
12.0
290
     0
  0
SCALE
  5
62
102
{ACAD_REACTORS
330
47
102
}
330
47
100
AcDbScale
 70
     0
300
1/2" = 1'-0"
140
0.5
141
12.0
290
     0
  0
SCALE
  5
63
102
{ACAD_REACTORS
330
47
102
}
330
47
100
AcDbScale
 70
     0
300
3/4" = 1'-0"
140
0.75
141
12.0
290
     0
  0
SCALE
  5
64
102
{ACAD_REACTORS
330
47
102
}
330
47
100
AcDbScale
 70
     0
300
1" = 1'-0"
140
1.0
141
12.0
290
     0
  0
SCALE
  5
65
102
{ACAD_REACTORS
330
47
102
}
330
47
100
AcDbScale
 70
     0
300
1-1/2" = 1'-0"
140
1.5
141
12.0
290
     0
  0
SCALE
  5
66
102
{ACAD_REACTORS
330
47
102
}
330
47
100
AcDbScale
 70
     0
300
3" = 1'-0"
140
3.0
141
12.0
290
     0
  0
SCALE
  5
67
102
{ACAD_REACTORS
330
47
102
}
330
47
100
AcDbScale
 70
     0
300
6" = 1'-0"
140
6.0
141
12.0
290
     0
  0
SCALE
  5
68
102
{ACAD_REACTORS
330
47
102
}
330
47
100
AcDbScale
 70
     0
300
1'-0" = 1'-0"
140
12.0
141
12.0
290
     0
  0
ENDSEC
  0
EOF
